SCARZIP (SCARZ Information Pane)
Sonic Stadium
Green Hill Zone


THE 10 CULTMANDMENTS | THE IDIOT'S GUIDE TO POSTING AT SCARZ
Sonic Online
Sonic Dimension


Welcome Guest ( Log In | Register )

 
Reply to this topicStart new topic
> I need some help, with a bass tab...
craigelry
post Oct 16 2005, 02:22 PM
Post #1

Group Icon

Group: CulT Member
Posts: 24
Joined: 2-August 04
Member No.: 3,154
Gender: Male



I'm trying to tab the bass for the song, "Won't Stop, Just GO!" (Green Forest), from Sonic Adventure 2. I'm having some trouble and could someone help me out. This is what I've done so far. I'm sure that about 95% of it is correct. All that i need really is the solo. But if you feel that something doesn't sound right then let me know, or revise it yourself. You can get the song from here.

http://www.planetdreamcast.com/sonic/liste...venture02.shtml


Wont Stop, Just GO! (Green Forest)

Standard Tuning (E A,D,G)

~ let note ring
> strum

Intro (Start at 0:05)
G---------------------------------
D---------------------------------
A-2~--------------2~--------------
E--------3--3--5---------3--3--5--

Verse 1 (0:11)
G-----------------------------
D-----------------------------
A-22-0-2-5-7-5-7--5-7--7-5-0--
E-----------------------------

G-----------------------------
D-----------------------------
A-22-0-2-5-7-5-7--5-7--7-5-0--
E-----------------------------

Verse 2 (0:17)
G----------------------------------------
D----------------------------------2---2-
A-2-0-2----5-0-544332-0-2----5-0-5---0---
E----------------------------------------

G----------------------------------------
D----------------------------------2---2-
A-2-0-2----5-0-544332-0-2----5-0-5---0---
E----------------------------------------

Pre Chorus (0:30)
G-----------------------------------------------
D-----------------------------------------------
A-2---0-2---0-5---3-5---3-7---5-7---5---5-------
E---2-----2-----5-----5-----7-----7---3---5-3-2-

G-----------------------------------------------
D-----------------------------------------------
A-2---0-2---0-5---3-5---3-7---5-7---5---5-------
E---2-----2-----5-----5-----7-----7---3---5-3-2-

Chorus (0:42)
G--------------------------------------------
D-------4-2-0-------2-0---------0------------
A-5-0-3-------3---2-----3-2---0---3-2-1-13-3-
E---------------3-----------2----------------

G----------------------------------------------------------
D-------4-2-0-------2-0---------0----------0-2-3----0-2-3-5
A-5-0-3-------3---2-----3-2---0---3-2-11-3--------3--------
E---------------3-----------2------------------------------

Verse 1 (0:56)
G-----------------------------
D-----------------------------
A-22-0-2-5-7-5-7--5-7--7-5-0--
E-----------------------------

G-----------------------------
D-----------------------------
A-22-0-2-5-7-5-7--5-7--7-5-0--
E-----------------------------

Verse 2 (1:02)
G----------------------------------------
D----------------------------------2---2-
A-2-0-2----5-0-544332-0-2----5-0-5---0---
E----------------------------------------

G----------------------------------------
D----------------------------------2---2-
A-2-0-2----5-0-544332-0-2----5-0-5---0---
E----------------------------------------

Pre Chorus (1:15)
G-----------------------------------------------
D-----------------------------------------------
A-2---0-2---0-5---3-5---3-7---5-7---5---5-------
E---2-----2-----5-----5-----7-----7---3---5-3-2-

Chorus (1:21)
G--------------------------------------------
D-------4-2-0-------2-0---------0------------
A-5-0-3-------3---2-----3-2---0---3-2-1-13-3-
E---------------3-----------2----------------

G----------------------------------------------------------
D-------4-2-0-------2-0---------0----------0-2-3----0-2-3-5
A-5-0-3-------3---2-----3-2---0---3-2-11-3--------3--------
E---------------3-----------2------------------------------

Verse 3 (1:35) X4
G--------------------------
D--------------------------
A-2>----0>-----------------
E-------------4>----3>-----

Solo (1:47)
G---------------------------------------------------------
D---------------------------------------------------------
A---------------------------------------------------------
E---------------------------------------------------------

G---------------------------------------------------------
D---------------------------------------------------------
A---------------------------------------------------------
E---------------------------------------------------------

G---------------------------
D-------0-2-0-------44444-2-
A-2-0-2-------2-0-2---------
E---------------------------

Chorus (2:03)
G--------------------------------------------
D-------4-2-0-------2-0---------0------------
A-5-0-3-------3---2-----3-2---0---3-2-1-13-3-
E---------------3-----------2----------------

G----------------------------------------------------------
D-------4-2-0-------2-0---------0----------0-2-3----0-2-3-5
A-5-0-3-------3---2-----3-2---0---3-2-11-3--------3--------
E---------------3-----------2------------------------------

Verse 3 (2:17) X2 Ending (2:23)
G----------------------|---------
D----------------------|---------
A-2>---0>--------------|-2-2-0-2-
E-----------4>---3>----|---------
Go to the top of the page
 
+Quote Post
Super FreaK
post Oct 18 2005, 09:19 AM
Post #2


OBEY

Group Icon

Group: CulT Member
Posts: 363
Joined: 19-June 04
Member No.: 2,761
Gender: Male
Country: Spain



Even if it's bad (I don't know how to play the bass), I support people making tabs for sonic soundtracks. I'll may ask now my teacher to guitar tab this song.


--------------------
insert here typical fuck you signature
Go to the top of the page
 
+Quote Post
craigelry
post Nov 10 2005, 06:22 PM
Post #3

Group Icon

Group: CulT Member
Posts: 24
Joined: 2-August 04
Member No.: 3,154
Gender: Male



It seems as though there arent any bass players here at the cult. But just in case there are some, I've been tabbing "Mr. Unsmiley" (Sky Rail) for bass as well and its almost complete. I just need the end of the chorus. If someone could help me out it would be greatly appriciated.

Sky Rail (Mr. Unsmiley)

Standard Tuning (E A,D,G)

/ slide

Intro (start at 0:03)
G|-------------|
D|-------------|
A|-3--3--3--3--|
E|-------------|

Verse 1 (0:05)
G|-----------------------------------------|
D|-----------------------------------------|
A|-50--3-030505-3-030--------0--3--3--3--3-|
E|--------------------02--3----------------|

Verse 1 (0:10)
G|-----------------------------------------|
D|-----------------------------------------|
A|-50--3-030505-3-030--------0--3--3--3--3-|
E|--------------------02--3----------------|

Verse 2 (0:16)
G|-----------------------------|
D|---------------------------6-|
A|-5-0--3--0-3/5--5-0--3--0----|
E|-------------------------4---|

G|-------------------------------|
D|-------------------------------|
A|-5-0--3--0-3/5--5-0--3--07-6-5-|
E|-------------------------------|

G|-----------------------------|
D|---------------------------6-|
A|-5-0--3--0-3/5--5-0--3--0----|
E|-------------------------4---|

G|---------------------------------------|
D|---------------------------------------|
A|-5-0--3--0-3/5--5-0--3--07-6-5-4-3-2-1-|
E|---------------------------------------|

Chorus (0:31)
G|----------------------------------|
D|----------------------------------|
A|-0------0------0------6-6-666-----|
E|-------3--------------------------|

G|--------------------------------------------|
D|--------------------------------------------|
A|-0-0003-55-0-0006-55-0-0003-55—-------------|
E|--------------------------------------------|


I need help here ^^^



G|-------------------------------------------------|
D|-------------------------------------------------|
A|-0-0003-55-0-0006-55-0-0003-55-------------------|
E|-------------------------------------------------|


And here ^^^



Intro (0:49)
G|------------|
D|------------|
A|-3--3--3--3-|
E|------------|

Verse 1 (0:50)
G|-----------------------------------------|
D|-----------------------------------------|
A|-50--3-030505-3-030--------0--3--3--3--3-|
E|--------------------02--3----------------|

Verse 1 (0:56)
G|-----------------------------------------|
D|-----------------------------------------|
A|-50--3-030505-3-030--------0--3--3--3--3-|
E|--------------------02--3----------------|

Verse 2 (1:02)
G|-----------------------------|
D|---------------------------6-|
A|-5-0--3--0-3/5--5-0--3--0----|
E|-------------------------4---|

G|-------------------------------|
D|-------------------------------|
A|-5-0--3--0-3/5--5-0--3--07-6-5-|
E|-------------------------------|

G|-----------------------------|
D|---------------------------6-|
A|-5-0--3--0-3/5--5-0--3--0----|
E|-------------------------4---|

G|---------------------------------------|
D|---------------------------------------|
A|-5-0--3--0-3/5--5-0--3--07-6-5-4-3-2-1-|
E|---------------------------------------|

Chorus (1:17)
G|----------------------------------|
D|----------------------------------|
A|-0------0------0------6-6-666-----|
E|-------3--------------------------|

G|--------------------------------------------|
D|--------------------------------------------|
A|-0-0003-55-0-0006-55-0-0003-55—-------------|
E|--------------------------------------------|

G|-------------------------------------------------|
D|-------------------------------------------------|
A|-0-0003-55-0-0006-55-0-0003-55-------------------|
E|-------------------------------------------------|

Intro (1:35)
G|------------|
D|------------|
A|-3--3--3--3-|
E|------------|

Verse 1 (1:36)
G|-----------------------------------------|
D|-----------------------------------------|
A|-50--3-030505-3-030--------0--3--3--3--3-|
E|--------------------02--3----------------|

Verse 1 (1:42)
G|-----------------------------------------|
D|-----------------------------------------|
A|-50--3-030505-3-030--------0--3--3--3--3-|
E|--------------------02--3----------------|



And if anyone has any other custom made SA2 tabs (Guitar or Bass) please share them.

And thanks for the support, I hope to see that tab soon.
Go to the top of the page
 
+Quote Post

1 User(s) are reading this topic (1 Guests and 0 Anonymous Users)
0 Members:
Start new topic

 

Lo-Fi Version Time is now: 21st February 2018 - 08:00 AM